Kunci Gitar Chord Aly and Aj – Potential Breakup Song


  • fast
  •  
  •  
  •  
  •  
  •  
  • dyasnina scroll
Tempo  

loading...

Lirik Lagu dan Chord Gitar Aly and Aj – Potential Breakup Song disertai dengan Tab

[Verse 1]
F#m
 it took too long, it took too long, it took to long
          A
for you to call back
                            D
and normally i would just forget that
                             C#
except for the fact it was my birthday my stupid birthday
F#m
 i played along, i played along, i played along
                A
rolled right off my back
                      D
but obviously my armor was cracked
                                 C#
what kind of a boyfriend would forget that who would forget that

[Reff]
   F#m
the type of guy who doesn't see what he has until she leaves
A                       D
 don't let me go cause without me you know you're lost
                          C#
wise up now or pay the cost soon you will know

[Chorus]
F#m                              A
you're not livin' til your livin' livin with me
D                                  C#
you're not winnin' til your winnin' winning me
F#m                                A
you're not gettin' til your gettin' getting to me
D                                C#
you're not livin' til your livin' livin' with me


[Post Chorus 1]
F#m                   A
this is the potential break up song
         D                      C#
our album needs just one oh baby please please tell me


[Verse 2]
F#m
 we got along, we got along, we got along
         A
until you did that
                          D
now all i want is just my stuff back
                        C#
do you get that let me repeat that i want my stuff back


[Reff 2]
F#m
you can send it in a box i dont care just drop it off
A                      D
 i wont be home cause without me you know you're lost
                      C#
minus you im better off soon you will know


[Repeat Chorus]


[Bridge]

Aj: x means palm mute
              D                                   C#m
e|---------------------------------|---------------------------------
B|---------------------------------|---------------------------------
G|-7-x-x-7-x-x-7-x-x-7-x-x-7-x-7-x-|-6-x-x-6-x-x-6-x-x-6-x-x-6-x-6-x-
D|-7-x-x-7-x-x-7-x-x-7-x-x-7-x-7-x-|-6-x-x-6-x-x-6-x-x-6-x-x-6-x-6-x-
A|-5-x-x-5-x-x-5-x-x-5-x-x-5-x-5-x-|-4-x-x-4-x-x-4-x-x-4-x-x-4-x-4-x-
E|---------------------------------|---------------------------------
then
              E
e|---------------------------------
B|---------------------------------
G|---------------------------------
D|-2-x-x-2-x-x-2-x-x-2-x-x-2-x-2-2-
A|-2-x-x-2-x-x-2-x-x-2-x-x-2-x-2-2-
E|-0-x-x-0-x-x-0-x-x-0-x-x-0-x-0-0-

Aly: b means bend
e|-----------------------------|----------------------------
B|-----------------------------|----------------------------
G|-----------------------------|----------------------------
D|-9-----7-----6-----7-----8b--|-9-----7-----6-----7-----8b-
A|---7-7---7-7---7-7---7-7-----|---7-7---7-7---7-7---7-7----
E|-----------------------------|----------------------------
then
e|-----------------------------
B|-----------------------------
G|-----------------------------
D|-9-----7-----6-----8b-----7--
A|---7-7---7-7---7-7----7-7----
E|-----------------------------


D C#m                     E
    you can try, you can try
                           D
you know i'd know it'd be a lie
                       C#m
without me you're gonna cry
                   E
so you better think clearly clearly before you nearly nearly
           C#
bust up the situation that you're gonna miss dearly dearly come on


[Repeat Chorus and Post Chorus 1]


[Post Chorus 2]
F#m                   A
This is the potential make-up song
             D                              C#
Please just admit you're wrong Which will it be?
             F#m
Which will it be?
             A
La, la, la, la, la, la (La, la, la, la, la, la, la)
             D
La, la, la, la, la, la (La, la, la, la, la, la, la)
             C#
La, la, la, la, la, laaa...
Posted on : by
Related Chords: